IRON MAN


by Black Sabbath

Gtr I (E A D G B E)

  Gtr I
|------------------------|-------------|--------|
|------------------------|-------------|--------|
|------------------------|-------------|--------|
|------------------------|-------------|--------|
|------------------------|-------------|--------|
|-0b2r===0----(0)--------|-0b2r===0----|-(0)----|


|------------------|-------------------------------|
|------------------|-------------------------------|
|------------------|-------------------------------|
|------------------|-------------------------------|
|-9S=12--12S14-14--|-17S16-17S16-17S12-12S14-14----|
|-7S=10--10S12-12--|-15S14-15S14-15S10-10S12-12S15-|


|------------------|-------------------------------|
|------------------|-------------------------------|
|------------------|-------------------------------|
|------------------|-------------------------------|
|-9S=12--12S14-14--|-17S16-17S16-17S12-12S14-14----|
|-7S=10--10S12-12--|-15S14-15S14-15S10-10S12-12S15-|


     Q=69
|------------------|-----------------------------------|
|------------------|-----------------------------------|
|------------------|-----------------------------------|
|------------------|-----------------------------------|
|------------------|-----------------------------------|
|-7--10--10h12-12--|-15p14h15p14h15p14-10-10S12-12-20\-|


|------------------|----------------------------------|
|------------------|----------------------------------|
|------------------|----------------------------------|
|------------------|----------------------------------|
|------------------|----------------------------------|
|-7--10--10h12-12--|-15p14h15p14h15p14-10-10S12-12-20-|


|------------------|-------------------------------|----|
|------------------|-------------------------------|----|
|------------------|-------------------------------|----|
|------------------|-------------------------------|----|
|-9S=12--12S14-14--|-17S16-17S16-17S12-12S14-14----|----|
|-7S=10--10S12-12--|-15S14-15S14-15S10-10S12-12S15-|----|


|------------------|-----------------------------------|
|------------------|-----------------------------------|
|------------------|-----------------------------------|
|------------------|-----------------------------------|
|------------------|-----------------------------------|
|-7--10--10h12-12--|-15p14h15p14h15p14-10-10S12-12-20\-|


|------------------|----------------------------------|
|------------------|----------------------------------|
|------------------|----------------------------------|
|------------------|----------------------------------|
|------------------|----------------------------------|
|-7--10--10h12-12--|-15p14h15p14h15p14-10-10S12-12-20-|


||------------------|-----------------|---------------------|----------------|
||------------------|-----------------|---------------------|----------------|
||------------------|-----------------|---------------------|----------------|
||------------------|-----------------|---------------------|----------------|
||-------5-5b6------|-----------------|------5-(5)b5.5------|----------------|
||-7-7-7-------7--6-|-5-5-5-0-4-5-5-6-|-7-7------------7--6-|-5-5-5-0-4-5-5-6|


|-----------------------------||
|-----------------------------||
|-----------------------------||
|-----------------------------||
|------5-5b5.5----------------||
|-7-7----------7-7-6-5-5------||


|------------------|-------------------------------|
|------------------|-------------------------------|
|------------------|-------------------------------|
|------------------|-------------------------------|
|-9S=12--12S14-14--|-17S16-17S16-17S12-12S14-14----|
|-7S=10--10S12-12--|-15S14-15S14-15S10-10S12-12S15-|


|------------------|-------------------------------|
|------------------|-------------------------------|
|------------------|-------------------------------|
|------------------|-------------------------------|
|-9S=12--12S14-14--|-17S16-17S16-17S12-12S14-14----|
|-7S=10--10S12-12--|-15S14-15S14-15S10-10S12-12S15-|


|------------------|-----------------------------------|
|------------------|-----------------------------------|
|------------------|-----------------------------------|
|------------------|-----------------------------------|
|------------------|-----------------------------------|
|-7--10--10h12-12--|-15p14h15p14h15p14-10-10S12-12-20\-|


|------------------|----------------------------------|
|------------------|----------------------------------|
|------------------|----------------------------------|
|------------------|----------------------------------|
|------------------|----------------------------------|
|-7--10--10h12-12--|-15p14h15p14h15p14-10-10S12-12-20-|


||----------|----------|------------------------|-----------------------|
||----------|----------|------------------------|-----------------------|
||-9--------|-7--------|------------------------|-----------------------|
||-9--------|-7--------|------------------7-8-9-|------------------7-8-9|
||-7--------|-5--------|-9-9------7-7-8-9-------|-9-9------7-7-8-9------|
||----------|----------|-7-7-7-10---------------|-7-7-7-10--------------|


|----------|----------|------------------------|------------------------||
|----------|----------|------------------------|------------------------||
|-9--------|-7--------|------------------------|------------------------||
|-9--------|-7--------|------------------7-8-9-|------------------7-8-9-||
|-7--------|-5--------|-9-9------7-7-8-9-------|-9-9------7-7-8-9-------||
|----------|----------|-7-7-7-10---------------|-7-7-7-10---------------||


|------------------|-------------------------------|
|------------------|-------------------------------|
|------------------|-------------------------------|
|------------------|-------------------------------|
|-9S=12--12S14-14--|-17S16-17S16-17S12-12S14-14----|
|-7S=10--10S12-12--|-15S14-15S14-15S10-10S12-12S15-|


|------------------|-------------------------------|
|------------------|-------------------------------|
|------------------|-------------------------------|
|------------------|-------------------------------|
|-9S=12--12S14-14--|-17S16-17S16-17S12-12S14-14----|
|-7S=10--10S12-12--|-15S14-15S14-15S10-10S12-12S15-|


|------------------|-----------------------------------|
|------------------|-----------------------------------|
|------------------|-----------------------------------|
|------------------|-----------------------------------|
|------------------|-----------------------------------|
|-7--10--10h12-12--|-15p14h15p14h15p14-10-10S12-12-20\-|


|------------------|----------------------------------|
|------------------|----------------------------------|
|------------------|----------------------------------|
|------------------|----------------------------------|
|------------------|----------------------------------|
|-7--10--10h12-12--|-15p14h15p14h15p14-10-10S12-12-20-|


||----------|----------|------------------------|-----------------------|
||----------|----------|------------------------|-----------------------|
||-9--------|-7--------|------------------------|-----------------------|
||-9--------|-7--------|------------------7-8-9-|------------------7-8-9|
||-7--------|-5--------|-9-9------7-7-8-9-------|-9-9------7-7-8-9------|
||----------|----------|-7-7-7-10---------------|-7-7-7-10--------------|


|----------|----------|------------------------|------------------------||
|----------|----------|------------------------|------------------------||
|-9--------|-7--------|------------------------|------------------------||
|-9--------|-7--------|------------------7-8-9-|------------------7-8-9-||
|-7--------|-5--------|-9-9------7-7-8-9-------|-9-9------7-7-8-9-------||
|----------|----------|-7-7-7-10---------------|-7-7-7-10---------------||


|-----------------|-------------|-----------------|---------------|
|-----------------|-------------|-----------------|---------------|
|-----------------|-------------|-----------------|---------------|
|-11-9------------|-------------|-11-9------------|---------------|
|-------11--10--9-|--7----------|-------11--10--9-|--7------------|
|-----------------|-----7-7h9-9-|-----------------|-----7-7h9-9---|


|---------------------|--------------------|-----------------------------|
|---------------------|--------------------|-----------------------------|
|---------------------|---------------9----|-----------------------------|
|---------------------|------9-9-9h11---11-|-11p9----9-9-----------------|
|-----7-7h9-9p7---7-9-|-9h11---------------|------11-----11p9----9h11----|
|-7-0-----------9-----|--------------------|------------------11---------|


|----------------9---------|------------------------|
|-----------9------12p9----|-9----------------------|
|-----9-11-11b13--------11-|-9-9-9b10-(9)-----------|
|-11-----------------------|--------------11-9-9h11-|
|--------------------------|------------------------|
|--------------------------|------------------------|


|-----------9---------------------|
|---------9---12-9------9-12-9----|
|-9-11b12----------11-9-----------|
|---------------------------------|
|---------------------------------|
|---------------------------------|


|------------------9-------|-9--------12b14--12b14r12-|
|----9-12p9------9---12b14-|---12-9-9-----------------|
|-11--------11p9-----------|--------------------------|
|--------------------------|--------------------------|
|--------------------------|--------------------------|
|--------------------------|--------------------------|


|-12b14r12-9h12p9----9-------------|
|-----------------12---12-12b14----|
|----------------------------------|
|----------------------------------|
|----------------------------------|
|----------------------------------|


|-------9--------------9---------|
|-12b14---12p9-------9---12p9----|
|--------------11b13----------11-|
|--------------------------------|
|--------------------------------|
|--------------------------------|


|--------------------------|-------------------------|
|--------------------------|-------------------------|
|-11p9----9-9--------------|-9-9--------------9------|
|------11-----11p9----9-11-|-----11p9----9h11---9----|
|------------------11------|----------11-------------|
|--------------------------|-------------------------|


|-------------------------|-----------------------------|
|-------------------------|-----------------------------|
|-------------------------|-----------------------------|
|-9h11---9h11-(11)--9h11--|-(11)-9h11---9h11-(11)--9h11-|
|-------------------------|-----------------------------|
|-------------------------|-----------------------------|


|------------------------------|---------------------------|
|------------------------------|---------------------------|
|------------------------------|---------------------------|
|-(11)-9h11---9h11-(11)--9h11--|-(11)-9h11---9h11--9h11----|
|------------------------------|---------------------------|
|------------------------------|---------------------------|


|-----------------|-------------|-----------------|---------------|
|-----------------|-------------|-----------------|---------------|
|-----------------|-------------|-----------------|---------------|
|-11-9------------|-------------|-11-9------------|---------------|
|-------11--10--9-|--7----------|-------11--10--9-|--7------------|
|-----------------|-----7-7h9-9-|-----------------|-----7-7h9-9---|


|------------------------|------------------------|
|------------------------|------------------------|
|------------------------|------------------------|
|------------------7-8-9-|------------------7-8-9-|
|-9-9------7-7-8-9-------|-9-9------7-7-8-9-------|
|-7-7-7-10---------------|-7-7-7-10---------------|


|------------------------|------------------------|
|------------------------|------------------------|
|------------------------|------------------------|
|------------------7-8-9-|------------------7-8-9-|
|-9-9------7-7-8-9-------|-9-9------7-7-8-9-------|
|-7-7-7-10---------------|-7-7-7-10---------------|


|------------------|-------------------------------|
|------------------|-------------------------------|
|------------------|-------------------------------|
|------------------|-------------------------------|
|-9S=12--12S14-14--|-17S16-17S16-17S12-12S14-14----|
|-7S=10--10S12-12--|-15S14-15S14-15S10-10S12-12S15-|


|------------------|-------------------------------|
|------------------|-------------------------------|
|------------------|-------------------------------|
|------------------|-------------------------------|
|-9S=12--12S14-14--|-17S16-17S16-17S12-12S14-14----|
|-7S=10--10S12-12--|-15S14-15S14-15S10-10S12-12S15-|


|------------------|-----------------------------------|
|------------------|-----------------------------------|
|------------------|-----------------------------------|
|------------------|-----------------------------------|
|------------------|-----------------------------------|
|-7--10--10h12-12--|-15p14h15p14h15p14-10-10S12-12-20\-|


|------------------|----------------------------------|
|------------------|----------------------------------|
|------------------|----------------------------------|
|------------------|----------------------------------|
|------------------|----------------------------------|
|-7--10--10h12-12--|-15p14h15p14h15p14-10-10S12-12-20-|


|------------------|-----------------|---------------------|-----------------|
|------------------|-----------------|---------------------|-----------------|
|------------------|-----------------|---------------------|-----------------|
|------------------|-----------------|---------------------|-----------------|
|-------5-5b6------|-----------------|------5-(5)b5.5------|-----------------|
|-7-7-7-------7--6-|-5-5-5-0-4-5-5-6-|-7-7------------7--6-|-5-5-5-0-4-5-5-6-|


|--------------------|--------------------------|
|--------------------|--------------------------|
|--------------------|--------------------------|
|--------------------|--------------------------|
|------5-5b5.5-------|--------------------------|
|-7-7----------7-7-6-|-5-5-5------5--------5----|


|-------------|------------|-------------|--------|
|-------------|------------|-------------|--------|
|-------------|------------|-------------|--------|
|-------------|------------|-------------|--------|
|-------------|------------|-------------|--------|
|-0b2r===0----|-(0)--------|-0b2r===0----|-(0)----|


|------------------|----------|------------|-----------------|---|
|------------------|----------|------------|-----------------|---|
|------------------|----------|------------|-----------------|---|
|------------------|----------|------------|-4-5-4-5-4-5-4---|---|
|-7p5-7---(7)--5h7p|=5--------|-7p5-7------|---------------5-|---|
|------------------|----------|------------|-----------------|---|


|------------------|---------------------|
|------------------|---------------------|
|--------------7---|-7-9-9b11r=9-9b11r=9-|
|------5---7h9---9-|---------------------|
|-5-7----7---------|---------------------|
|------------------|---------------------|


|----------------|----------------10-10h12-|
|----------------|------8---10h12----------|
|-9b11r9-7---7h9-|-(9)----9----------------|
|----------9-----|-------------------------|
|----------------|-------------------------|
|----------------|-------------------------|


|-12b14--12b14--12b14r12p10-12p10---|
|---------------------------------x-|
|-----------------------------------|
|-----------------------------------|
|-----------------------------------|
|-----------------------------------|


|-10-----------------------|------------------------|
|----12-12p10-8-8h10-8-----|------------------------|
|----------------------9-7-|------------------------|
|--------------------------|-9p7-5-7p5---5h7--------|
|--------------------------|-----------7-----5h7----|
|--------------------------|------------------------|


|-----------------|-------------------------|
|-----------------|-------------------------|
|---------7---7-9-|-9b11r9-9b11r=9-9b11r(9)-|
|-5-7-7h9---9-----|-------------------------|
|-----------------|-------------------------|
|-----------------|-------------------------|


|------------------------------|---------------|
|------------------------------|---------------|
|-(9)-9b11-9b11--9b11--7h9p7---|-7-------------|
|----------------------------9-|---9p7-5-7-5-7-|
|------------------------------|---------------|
|------------------------------|---------------|


|-----------------------|
|-----------------------|
|-----------------------|
|-7b8-7b8--7b9r7-5------|
|------------------7----|
|-----------------------|


                                                                3x
||-------------------|----------|------------|------------------||
||o------------------|----------|------------|-----------------o||
||-------------------|----------|------------|------------------||
||-------------------|----------|------------|-4-5-4-5-4-5-4----||
||o-7p5-7--(7)---5h7p|=5--------|-7p5-7------|---------------5-o||
||-------------------|----------|------------|------------------||


|------------|
|------------|
|------------|
|------------|
|-7-5-7------|
|------------|



Tablature Legend
----------------
 h   - hammer-on
 p   - pull-off
 b   - bend
 pb  - pre-bend
 r   - bend release (if no number after the r, then release immediately)
 /\  - slide into or out of (from/to "nowhere")
 s   - legato slide
 S   - shift slide
<n> - natural harmonic
[n]  - artificial harmonic
n(n) - tapped harmonic
 ~   - vibrato
 tr  - trill
 T   - tap
 TP  - trem. picking
 PM  - palm muting
\n/  - tremolo bar dip; n = amount to dip
 \n  - tremolo bar down
 n/  - tremolo bar up
/n\  - tremolo bar inverted dip
 =   - hold bend; also acts as connecting device for hammers/pulls
 <> - volume swell (louder/softer)
 x   - on rhythm slash represents muted slash
 o   - on rhythm slash represents single note slash

Misc Legend
-----------
 |  - bar
||  - double bar
||o - repeat start
o|| - repeat end
*|  - double bar (ending)
 :  - bar (freetime)
 $  - Segno
 &  - Coda