Gtr I (E A D G B E) - 'Standard'

 4/4
  Gtr I
INTRO
|------------------------------------------------------------------|
|---------0---------------0---------------0---------------0--------|
|-----4-----4---------4-----4---------4-----4---------4---4--4-----|
|---2---2-----2-----2---2-----2-----2---2-----2-----2---2-2----2---|
|-4-------------4-0-------------4-4-------------4-0-------0--------|
|------------------------------------------------------------------|


|-----------------|-----------------|-----------------|----------------|
|---------0-------|---------0-------|---------0-------|---------0------|
|-----4-----4-----|-----4-----4-----|-----4-----4-----|-----4---4-4----|
|---2---2-----2---|---2---2-----2---|---2---2-----2---|---2---2-2---2--|
|-4-------------4-|-0-------------4-|-4-------------4-|-0-------0------|
|-----------------|-----------------|-----------------|----------------|

INTERLUDE
|--------------|---------------|----------------------------|
|--------------|---------------|----------------------------|
|-6--6-6-6-6-6-|-6--2-2-2--2-2-|-6--6-6-6-6-6-6--2-2-2------|
|-6--6-6-6-6-6-|-6--2-2-2--2-2-|-6--6-6-6-6-6-6--2-2-2-2----|
|-4--4-4-4-4-4-|-4--0-0-0--0-0-|-4--4-4-4-4-4-4--0-0-0-2----|
|--------------|---------------|-----------------------0----|


|-----------------|---------------|------------------------------|
|-----------------|---------------|------------------------------|
|-6--6-6-6-6-6-6--|-2-2-2--2-2-6--|-6-6-6-6-6-6S9-9-9-9----------|
|-6--6-6-6-6-6-6--|-2-2-2--2-2-6--|-6-6-6-6-6-6S9-9-9-9-9-x-9----|
|-4--4-4-4-4-4-4--|-0-0-0--0-0-4--|-4-4-4-4-4-4S7-7-7-7-9-x-7----|
|-----------------|---------------|---------------------7-x-5----|

VERSE
|----0--0-0-0----|-0--0-0-0-------|
|----7--7-7-7----|-7--7-7-7-------|
|----4--4-4-4----|-4--4-4-4----6--|
|-6--6--6-6-6----|-6--6-6-6-------|
|-------------7--|-7--7-7-7-6--6--|
|----------------|----------------|


|---------------|--------0--0-0-|-0----0--0-0-0--|
|---------------|--------0--0-0-|-0----0--0-0-0--|
|-6-6-6----6--6-|-6-6----8--8-8-|-8----8--8-8-8--|
|---------------|--------6--6-6-|-6----9--9-9-9--|
|-6-6-6-6--6--6-|-6-6-4--4--4-4-|-4----9--9-9-9--|
|---------------|---------------|---7--7--7-7-7--|


|----0--0-0-0----|-0--0-0-0-------|-0--0-0-0----4--|-4-4-4---------|
|----0--0-0-0----|-0--0-0-0-------|-0--0-0-0----4--|-4-4-4----9--9-|
|----9--9-9-9----|-9--9-9-9-----8-|-8--8-8-8----4--|-4-4-4----8--8-|
|----7--7-7-7----|-7--7-7-7---6---|-6--6-6-6----6--|-6-6-6----9--9-|
|-5--5--5-5-5-5--|-5--5-5-5-4-----|-4--4-4-4----6--|-6-6-6-7--7--7-|
|----------------|----------------|----------4--4--|-4-4-4---------|


  |
  /

|---------------|---------------|-------0--0-0-0-|----------------|---|
|-9-9----9--9-9-|-9----7--7-7-7-|-------0--0-0-0-|----------------|---|
|-8-8----8--8-8-|-8-------------|-----4-4--4-4-4-|-2--2-2-2--2-2--|---|
|-9-9----9--9-9-|-9----8--8-8-8-|---4---4--4-4-4-|-2--2-2-2--2-2--|---|
|-7-7-7--7--7-7-|-7-6--6--6-6-6-|-2-----2--2-2-2-|-0--0-0-0--0-0--|---|
|---------------|---------------|----------------|----------------|---|


|-----------------|
|-----------------|
|-2-2--2-2-2-2----|
|-2-2--2-2-2-2----|
|-0-0--0-0-0-0----|
|-----------------|

CHORUS
|---------------|---------------|---------------|----------------|
|---------------|---------------|---------------|----------------|
|-6--6-6--6-6-6-|-6--4-4--4-4-4-|-2--2-2--2-2-2-|-2--------------|
|-6--6-6--6-6-6-|-6--4-4--4-4-4-|-2--2-2--2-2-2-|-2--4-2-2-4-2-2-|
|-4--4-4--4-4-4-|-4--2-2--2-2-2-|-0--0-0--0-0-0-|-0--4-2-2-4-2-2-|
|---------------|---------------|---------------|----2-0-0-2-0-0-|


|---------------|---------------|---------------|----------------|
|---------------|---------------|---------------|----------------|
|-6--6-6--6-6-6-|-6--4-4--4-4-4-|-2--2-2--2-2-2-|-2--------------|
|-6--6-6--6-6-6-|-6--4-4--4-4-4-|-2--2-2--2-2-2-|-2--4-2-2-4-2-2-|
|-4--4-4--4-4-4-|-4--2-2--2-2-2-|-0--0-0--0-0-0-|-0--4-2-2-4-2-2-|
|---------------|---------------|---------------|----2-0-0-2-0-0-|


|---------------|---------------|---------0--0--|-0--0--0-0-0-|
|---------------|---------------|---------0--0--|-0--0--0-0-0-|
|-6--6-6--6-6-6-|-2--2-2--2-2-2-|-4--4-4--4--4--|-4--4--4-4-4-|
|-6--6-6--6-6-6-|-2--2-2--2-2-2-|-4--4-4--4--4--|-4--4--4-4-4-|
|-4--4-4--4-4-4-|-0--0-0--0-0-0-|-2--2-2--2--2--|-2--2--2-2-2-|
|---------------|---------------|---------------|-------------|


|---------------|---------------|---------0--0--|-0-----------|--------|
|---------------|---------------|---------0--0--|-0-----------|--------|
|-6--6-6--6-6-6-|-2--2-2--2-2-2-|-4--4-4--4--4--|-4-----------|--------|
|-6--6-6--6-6-6-|-2--2-2--2-2-2-|-4--4-4--4--4--|-4--4--2--2--|-4-2-2--|
|-4--4-4--4-4-4-|-0--0-0--0-0-0-|-2--2-2--2--2--|-2--4--2--2--|-4-2-2--|
|---------------|---------------|---------------|----2--0--0--|-2-0-0--|


      PM----|        PM----|        PM----|        PM-|
|--------------|--------------|--------------|-------------|
|--------------|--------------|--------------|-------------|
|--------------|--------------|--------------|-------------|
|-6-6-x--x-x-xx|-2-2-x--x-x-xx|-6-6-x--x-x-xx|-2-2-x--x----|
|-6-6-x--x-x-xx|-2-2-x--x-x-xx|-6-6-x--x-x-xx|-2-2-x--x----|
|-4-4-x--x-x-xx|-0-0-x--x-x-xx|-4-4-x--x-x-xx|-0-0-x--x----|

VERSE
|----0--0-0-0----|-0--0-0-0-------|
|----7--7-7-7----|-7--7-7-7-------|
|----4--4-4-4----|-4--4-4-4----6--|
|-6--6--6-6-6----|-6--6-6-6-------|
|-------------7--|-7--7-7-7-6--6--|
|----------------|----------------|


|---------------|--------0--0-0-|-0----0--0-0-0--|
|---------------|--------0--0-0-|-0----0--0-0-0--|
|-6-6-6----6--6-|-6-6----8--8-8-|-8----8--8-8-8--|
|---------------|--------6--6-6-|-6----9--9-9-9--|
|-6-6-6-6--6--6-|-6-6-4--4--4-4-|-4----9--9-9-9--|
|---------------|---------------|---7--7--7-7-7--|


|----0--0-0-0----|-0--0-0-0-------|-0--0-0-0----4--|-4-4-4---------|
|----0--0-0-0----|-0--0-0-0-------|-0--0-0-0----4--|-4-4-4----9--9-|
|----9--9-9-9----|-9--9-9-9-----8-|-8--8-8-8----4--|-4-4-4----8--8-|
|----7--7-7-7----|-7--7-7-7---6---|-6--6-6-6----6--|-6-6-6----9--9-|
|-5--5--5-5-5-5--|-5--5-5-5-4-----|-4--4-4-4----6--|-6-6-6-7--7--7-|
|----------------|----------------|----------4--4--|-4-4-4---------|


|---------------|---------------|-------0--0-0-0-|-----------------|
|-9-9----9--9-9-|-9----7--7-7-7-|-------0--0-0-0-|-----------------|
|-8-8----8--8-8-|-8-------------|-----4-4--4-4-4-|-2--2-2-2--2-2---|
|-9-9----9--9-9-|-9----8--8-8-8-|---4---4--4-4-4-|-2--2-2-2--2-2---|
|-7-7-7--7--7-7-|-7-6--6--6-6-6-|-2-----2--2-2-2-|-0--0-0-0--0-0---|
|---------------|---------------|----------------|-----------------|


|-----------------|
|-----------------|
|-2-2--2-2-2-2----|
|-2-2--2-2-2-2----|
|-0-0--0-0-0-0----|
|-----------------|

CHORUS
|---------------|---------------|---------------|----------------|
|---------------|---------------|---------------|----------------|
|-6--6-6--6-6-6-|-6--4-4--4-4-4-|-2--2-2--2-2-2-|-2--------------|
|-6--6-6--6-6-6-|-6--4-4--4-4-4-|-2--2-2--2-2-2-|-2--4-2-2-4-2-2-|
|-4--4-4--4-4-4-|-4--2-2--2-2-2-|-0--0-0--0-0-0-|-0--4-2-2-4-2-2-|
|---------------|---------------|---------------|----2-0-0-2-0-0-|


|---------------|---------------|---------------|----------------|
|---------------|---------------|---------------|----------------|
|-6--6-6--6-6-6-|-6--4-4--4-4-4-|-2--2-2--2-2-2-|-2--------------|
|-6--6-6--6-6-6-|-6--4-4--4-4-4-|-2--2-2--2-2-2-|-2--4-2-2-4-2-2-|
|-4--4-4--4-4-4-|-4--2-2--2-2-2-|-0--0-0--0-0-0-|-0--4-2-2-4-2-2-|
|---------------|---------------|---------------|----2-0-0-2-0-0-|


|---------------|---------------|---------0--0--|-0--0--0-0-0-|
|---------------|---------------|---------0--0--|-0--0--0-0-0-|
|-6--6-6--6-6-6-|-2--2-2--2-2-2-|-4--4-4--4--4--|-4--4--4-4-4-|
|-6--6-6--6-6-6-|-2--2-2--2-2-2-|-4--4-4--4--4--|-4--4--4-4-4-|
|-4--4-4--4-4-4-|-0--0-0--0-0-0-|-2--2-2--2--2--|-2--2--2-2-2-|
|---------------|---------------|---------------|-------------|


|---------------|---------------|---------0--0--|-0-----------|--------|
|---------------|---------------|---------0--0--|-0-----------|--------|
|-6--6-6--6-6-6-|-2--2-2--2-2-2-|-4--4-4--4--4--|-4-----------|--------|
|-6--6-6--6-6-6-|-2--2-2--2-2-2-|-4--4-4--4--4--|-4--4--2--2--|-4-2-2--|
|-4--4-4--4-4-4-|-0--0-0--0-0-0-|-2--2-2--2--2--|-2--4--2--2--|-4-2-2--|
|---------------|---------------|---------------|----2--0--0--|-2-0-0--|



|-----------------|-----------------|-----------------|----------------|
|---------0-------|---------0-------|---------0-------|---------0------|
|-----4-----4-----|-----4-----4-----|-----4-----4-----|-----4---4--4---|
|---2---2-----2---|---2---2-----2---|---2---2-----2---|---2---2-2----2-|
|-4-------------4-|-0-------------4-|-4-------------4-|-0-------0------|
|-----------------|-----------------|-----------------|----------------|


|-----------------|-----------------|-----------------|----|
|---------0-------|---------0-------|---------0-------|----|
|-----4-----4-----|-----4-----4-----|-----4-----4-----|----|
|---2---2-----2---|---2---2-----2---|---2---2-----2---|----|
|-4-------------4-|-0-------------4-|-4-------------4-|----|
|-----------------|-----------------|-----------------|----|


|-----0-------0-------0-------0------|
|---0---0---0---0---0---0---0---0----|
|-6-------6-------6-------6----------|
|------------------------------------|
|------------------------------------|
|------------------------------------|

CHORUS
|---------------|---------------|---------------|----------------|
|---------------|---------------|---------------|----------------|
|-6--6-6--6-6-6-|-6--4-4--4-4-4-|-2--2-2--2-2-2-|-2--------------|
|-6--6-6--6-6-6-|-6--4-4--4-4-4-|-2--2-2--2-2-2-|-2--4-2-2-4-2-2-|
|-4--4-4--4-4-4-|-4--2-2--2-2-2-|-0--0-0--0-0-0-|-0--4-2-2-4-2-2-|
|---------------|---------------|---------------|----2-0-0-2-0-0-|


|---------------|---------------|---------------|----------------|
|---------------|---------------|---------------|----------------|
|-6--6-6--6-6-6-|-6--4-4--4-4-4-|-2--2-2--2-2-2-|-2--------------|
|-6--6-6--6-6-6-|-6--4-4--4-4-4-|-2--2-2--2-2-2-|-2--4-2-2-4-2-2-|
|-4--4-4--4-4-4-|-4--2-2--2-2-2-|-0--0-0--0-0-0-|-0--4-2-2-4-2-2-|
|---------------|---------------|---------------|----2-0-0-2-0-0-|


|---------------|---------------|---------0--0--|-0--0--0-0-0-|
|---------------|---------------|---------0--0--|-0--0--0-0-0-|
|-6--6-6--6-6-6-|-2--2-2--2-2-2-|-4--4-4--4--4--|-4--4--4-4-4-|
|-6--6-6--6-6-6-|-2--2-2--2-2-2-|-4--4-4--4--4--|-4--4--4-4-4-|
|-4--4-4--4-4-4-|-0--0-0--0-0-0-|-2--2-2--2--2--|-2--2--2-2-2-|
|---------------|---------------|---------------|-------------|


|---------------|---------------|---------0--0--|-0-----------|--------|
|---------------|---------------|---------0--0--|-0-----------|--------|
|-6--6-6--6-6-6-|-2--2-2--2-2-2-|-4--4-4--4--4--|-4-----------|--------|
|-6--6-6--6-6-6-|-2--2-2--2-2-2-|-4--4-4--4--4--|-4--4--2--2--|-4-2-2--|
|-4--4-4--4-4-4-|-0--0-0--0-0-0-|-2--2-2--2--2--|-2--4--2--2--|-4-2-2--|
|---------------|---------------|---------------|----2--0--0--|-2-0-0--|

OUTRO
|-----------------|---------------|----------------|----------|
|-----------------|---------------|----------------|----------|
|-6--6-6-6-6-6-6--|-2-2-2--2-2-6--|-6-6-6-6-6-6--2-|-2-2------|
|-6--6-6-6-6-6-6--|-2-2-2--2-2-6--|-6-6-6-6-6-6--2-|-2-2-2----|
|-4--4-4-4-4-4-4--|-0-0-0--0-0-4--|-4-4-4-4-4-4--0-|-0-0-2----|
|-----------------|---------------|----------------|-----0----|


|----------------|------------------|----------------|-----0-0----|
|----------------|------------------|----------------|-----0-0----|
|-6--6-6-6-6-6-6S|=9-9-9-9-------6--|-6-6-6-6-6-6--4-|-4-4-2-2----|
|-6--6-6-6-6-6-6S|=9-9-9-9-9-x-9-6--|-6-6-6-6-6-6--4-|-4-4-2-2----|
|-4--4-4-4-4-4-4S|=7-7-7-7-9-x-7-4--|-4-4-4-4-4-4--2-|-2-2-0-0----|
|----------------|---------7-x-5----|----------------|------------|



Tablature Legend
----------------
 h   - hammer-on
 p   - pull-off
 b   - bend
 pb  - pre-bend
 r   - bend release (if no number after the r, then release immediately)
 /\  - slide into or out of (from/to "nowhere")
 s   - legato slide
 S   - shift slide
<n> - natural harmonic
[n]  - artificial harmonic
n(n) - tapped harmonic
 ~   - vibrato
 tr  - trill
 T   - tap
 TP  - trem. picking
 PM  - palm muting
\n/  - tremolo bar dip; n = amount to dip
 \n  - tremolo bar down
 n/  - tremolo bar up
/n\  - tremolo bar inverted dip
 =   - hold bend; also acts as connecting device for hammers/pulls
 <> - volume swell (louder/softer)
 x   - on rhythm slash represents muted slash
 o   - on rhythm slash represents single note slash

Misc Legend
-----------
 |  - bar
||  - double bar
||o - repeat start
o|| - repeat end
*|  - double bar (ending)
 :  - bar (freetime)
 $  - Segno
 &  - Coda